TOMMY EMMANUEL  
How to Galloping Guitar

◆◆◆レッスン1◆◆◆

●ベース音をマスターせよ。
<->一個は16分音符の長さ。
4〜6弦は全て(右手)親指でピッキング。サム・ピックでも指でもOK。
ギター・ブリッジの上に右手を置き、4〜6弦をややミュートする。

親指ベースの練習
  C                                 Am
||----------------|----------------|----------------|----------------|
||----------------|----------------|----------------|----------------|
||----------------|----------------|----------------|----------------|
||----2-------2---|----2-------2---|----2-------2---|----2-------2---|
||3---------------|3---------------|0---------------|0---------------|
||--------3-------|--------3-------|--------0-------|--------0-------|

●上記のベース音に、ちょっとしたメロディーを加える。
<->16分音符のシャッフル。
最初は、ゆっくり弾けるようにするべきなので、テンポは「弾ける」スピードで弾く。

"Trambone" by CHET ATKINS

  C                                 Am
||------------0---|------0---------|------------0---|------0---------|
||----1---3-------|3-1-------------|----1---3-------|3-1-------------|
||----------------|----------------|----------------|----------------|
||----2-------2---|----2-------2---|----2-------2---|----2-------2---|
||3---------------|3---------------|0---------------|0---------------|
||--------3-------|--------3-------|--------0-------|--------0-------|

Cコードの時に6弦を押さえるには、5弦の薬指を移動させる。
偶数小節の2弦3-1は、プリングでも良いし、両方ピッキングしても良い。
正直な話、この4小節だけで最低でも一ヶ月はかけたほうがいい。
5小節目に進みたい気持ちは、出るが、いい加減なマスターで次に進むと、後で苦労する。
毎日10分、一ヶ月練習するのが、上達の秘訣!。

●さて、上記の譜例の続きです。

  FM7                               G(onF)                    G7
||------------0---|------0---------|----------------|----------------|
||----1---3-------|3-1-------------|----1---1-------|1-----1---3-----|
||----------------|----------------|----2---2-------|2-----2---4-----|
||----3-------3---|----3-------3---|----3---3-------|3---------3-----|
||----------------|----------------|----------------|----------------|
||1-------1-------|1-------1-------|3-----------3---|----3-----------|

FM7コードとG(onF)では6弦を左手親指で押さえます。
G7もできれば6弦を左手親指で押さたままでプレイ。

 go to TOP





SEO [PR] ギフト 音楽配信 コンサート情報 わけあり商品 無料レンタルサーバー